  0
SECTION
  2
HEADER
  9
$ACADVER
  1
AC1015
  9
$ACADMAINTVER
 70
     6
  9
$DWGCODEPAGE
  3
ANSI_1254
  9
$INSBASE
 10
0.0
 20
0.0
 30
0.0
  9
$EXTMIN
 10
0.0
 20
0.0
 30
0.0
  9
$EXTMAX
 10
279.4
 20
215.9
 30
0.0
  9
$LIMMIN
 10
0.0
 20
0.0
  9
$LIMMAX
 10
279.4
 20
215.9
  9
$ORTHOMODE
 70
     0
  9
$REGENMODE
 70
     1
  9
$FILLMODE
 70
     1
  9
$QTEXTMODE
 70
     0
  9
$MIRRTEXT
 70
     1
  9
$LTSCALE
 40
1.0
  9
$ATTMODE
 70
     1
  9
$TEXTSIZE
 40
3.5
  9
$TRACEWID
 40
1.0
  9
$TEXTSTYLE
  7
Standard
  9
$CLAYER
  8
0
  9
$CELTYPE
  6
ByLayer
  9
$CECOLOR
 62
   256
  9
$CELTSCALE
 40
1.0
  9
$DISPSILH
 70
     0
  9
$DIMSCALE
 40
1.0
  9
$DIMASZ
 40
3.5
  9
$DIMEXO
 40
1.0
  9
$DIMDLI
 40
3.75
  9
$DIMRND
 40
0.0
  9
$DIMDLE
 40
0.0
  9
$DIMEXE
 40
1.0
  9
$DIMTP
 40
0.0
  9
$DIMTM
 40
0.0
  9
$DIMTXT
 40
3.5
  9
$DIMCEN
 40
2.5
  9
$DIMTSZ
 40
0.0
  9
$DIMTOL
 70
     0
  9
$DIMLIM
 70
     0
  9
$DIMTIH
 70
     1
  9
$DIMTOH
 70
     1
  9
$DIMSE1
 70
     0
  9
$DIMSE2
 70
     0
  9
$DIMTAD
 70
     1
  9
$DIMZIN
 70
     0
  9
$DIMBLK
  1

  9
$DIMASO
 70
     1
  9
$DIMSHO
 70
     1
  9
$DIMPOST
  1

  9
$DIMAPOST
  1

  9
$DIMALT
 70
     0
  9
$DIMALTD
 70
     3
  9
$DIMALTF
 40
0.0393700787
  9
$DIMLFAC
 40
1.0
  9
$DIMTOFL
 70
     1
  9
$DIMTVP
 40
0.0
  9
$DIMTIX
 70
     0
  9
$DIMSOXD
 70
     0
  9
$DIMSAH
 70
     0
  9
$DIMBLK1
  1

  9
$DIMBLK2
  1

  9
$DIMSTYLE
  2
ISO-25
  9
$DIMCLRD
 70
     0
  9
$DIMCLRE
 70
     0
  9
$DIMCLRT
 70
     0
  9
$DIMTFAC
 40
1.0
  9
$DIMGAP
 40
1.524
  9
$DIMJUST
 70
     0
  9
$DIMSD1
 70
     0
  9
$DIMSD2
 70
     0
  9
$DIMTOLJ
 70
     0
  9
$DIMTZIN
 70
     0
  9
$DIMALTZ
 70
     0
  9
$DIMALTTZ
 70
     0
  9
$DIMUPT
 70
     0
  9
$DIMDEC
 70
     2
  9
$DIMTDEC
 70
     2
  9
$DIMALTU
 70
     2
  9
$DIMALTTD
 70
     3
  9
$DIMTXSTY
  7
Standard
  9
$DIMAUNIT
 70
     0
  9
$DIMADEC
 70
     2
  9
$DIMALTRND
 40
0.0
  9
$DIMAZIN
 70
     0
  9
$DIMDSEP
 70
    44
  9
$DIMATFIT
 70
     3
  9
$DIMFRAC
 70
     0
  9
$DIMLDRBLK
  1

  9
$DIMLUNIT
 70
     2
  9
$DIMLWD
 70
    -2
  9
$DIMLWE
 70
    -2
  9
$DIMTMOVE
 70
     0
  9
$LUNITS
 70
     2
  9
$LUPREC
 70
     2
  9
$SKETCHINC
 40
1.0
  9
$FILLETRAD
 40
10.0
  9
$AUNITS
 70
     0
  9
$AUPREC
 70
     2
  9
$MENU
  1
.
  9
$ELEVATION
 40
0.0
  9
$PELEVATION
 40
0.0
  9
$THICKNESS
 40
0.0
  9
$LIMCHECK
 70
     0
  9
$CHAMFERA
 40
0.0
  9
$CHAMFERB
 40
0.0
  9
$CHAMFERC
 40
0.0
  9
$CHAMFERD
 40
0.0
  9
$SKPOLY
 70
     0
  9
$TDCREATE
 40
2458985.706207697
  9
$TDUCREATE
 40
2458985.581207697
  9
$TDUPDATE
 40
2458985.706208021
  9
$TDUUPDATE
 40
2458985.581208021
  9
$TDINDWG
 40
0.0000000116
  9
$TDUSRTIMER
 40
0.0000000116
  9
$USRTIMER
 70
     1
  9
$ANGBASE
 50
0.0
  9
$ANGDIR
 70
     0
  9
$PDMODE
 70
     0
  9
$PDSIZE
 40
-1.0
  9
$PLINEWID
 40
0.0
  9
$SPLFRAME
 70
     0
  9
$SPLINETYPE
 70
     6
  9
$SPLINESEGS
 70
     8
  9
$HANDSEED
  5
F1
  9
$SURFTAB1
 70
     6
  9
$SURFTAB2
 70
     6
  9
$SURFTYPE
 70
     6
  9
$SURFU
 70
     6
  9
$SURFV
 70
     6
  9
$UCSBASE
  2

  9
$UCSNAME
  2

  9
$UCSORG
 10
0.0
 20
0.0
 30
0.0
  9
$UCSXDIR
 10
1.0
 20
0.0
 30
0.0
  9
$UCSYDIR
 10
0.0
 20
1.0
 30
0.0
  9
$UCSORTHOREF
  2

  9
$UCSORTHOVIEW
 70
     0
  9
$UCSORGTOP
 10
0.0
 20
0.0
 30
0.0
  9
$UCSORGBOTTOM
 10
0.0
 20
0.0
 30
0.0
  9
$UCSORGLEFT
 10
0.0
 20
0.0
 30
0.0
  9
$UCSORGRIGHT
 10
0.0
 20
0.0
 30
0.0
  9
$UCSORGFRONT
 10
0.0
 20
0.0
 30
0.0
  9
$UCSORGBACK
 10
0.0
 20
0.0
 30
0.0
  9
$PUCSBASE
  2

  9
$PUCSNAME
  2

  9
$PUCSORG
 10
0.0
 20
0.0
 30
0.0
  9
$PUCSXDIR
 10
1.0
 20
0.0
 30
0.0
  9
$PUCSYDIR
 10
0.0
 20
1.0
 30
0.0
  9
$PUCSORTHOREF
  2

  9
$PUCSORTHOVIEW
 70
     0
  9
$PUCSORGTOP
 10
0.0
 20
0.0
 30
0.0
  9
$PUCSORGBOTTOM
 10
0.0
 20
0.0
 30
0.0
  9
$PUCSORGLEFT
 10
0.0
 20
0.0
 30
0.0
  9
$PUCSORGRIGHT
 10
0.0
 20
0.0
 30
0.0
  9
$PUCSORGFRONT
 10
0.0
 20
0.0
 30
0.0
  9
$PUCSORGBACK
 10
0.0
 20
0.0
 30
0.0
  9
$USERI1
 70
     0
  9
$USERI2
 70
     0
  9
$USERI3
 70
     0
  9
$USERI4
 70
     0
  9
$USERI5
 70
     0
  9
$USERR1
 40
0.0
  9
$USERR2
 40
0.0
  9
$USERR3
 40
0.0
  9
$USERR4
 40
0.0
  9
$USERR5
 40
0.0
  9
$WORLDVIEW
 70
     1
  9
$SHADEDGE
 70
     3
  9
$SHADEDIF
 70
    70
  9
$TILEMODE
 70
     1
  9
$MAXACTVP
 70
    64
  9
$PINSBASE
 10
0.0
 20
0.0
 30
0.0
  9
$PLIMCHECK
 70
     0
  9
$PEXTMIN
 10
1.0000000000E+20
 20
1.0000000000E+20
 30
1.0000000000E+20
  9
$PEXTMAX
 10
-1.0000000000E+20
 20
-1.0000000000E+20
 30
-1.0000000000E+20
  9
$PLIMMIN
 10
0.0
 20
0.0
  9
$PLIMMAX
 10
420.0
 20
297.0
  9
$UNITMODE
 70
     0
  9
$VISRETAIN
 70
     1
  9
$PLINEGEN
 70
     0
  9
$PSLTSCALE
 70
     1
  9
$TREEDEPTH
 70
  3020
  9
$CMLSTYLE
  2
Standard
  9
$CMLJUST
 70
     0
  9
$CMLSCALE
 40
20.0
  9
$PROXYGRAPHICS
 70
     1
  9
$MEASUREMENT
 70
     1
  9
$CELWEIGHT
370
    -1
  9
$ENDCAPS
280
     0
  9
$JOINSTYLE
280
     0
  9
$LWDISPLAY
290
     1
  9
$INSUNITS
 70
     4
  9
$HYPERLINKBASE
  1

  9
$STYLESHEET
  1

  9
$XEDIT
290
     1
  9
$CEPSNTYPE
380
     0
  9
$PSTYLEMODE
290
     1
  9
$FINGERPRINTGUID
  2
{8e676ec7-f0f4-48c1-a74a-b17d39a080d6}
  9
$VERSIONGUID
  2
{FAEB1C32-E019-11D5-929B-00C0DF256EC4}
  9
$EXTNAMES
290
     1
  9
$PSVPSCALE
 40
0.0
  9
$OLESTARTUP
290
     0
  0
ENDSEC
  0
SECTION
  2
CLASSES
  0
CLASS
  1
ACDBDICTIONARYWDFLT
  2
AcDbDictionaryWithDefault
  3
ObjectDBX Classes
 90
        0
280
     0
281
     0
  0
CLASS
  1
VISUALSTYLE
  2
AcDbVisualStyle
  3
ObjectDBX Classes
 90
     4095
280
     0
281
     0
  0
CLASS
  1
MATERIAL
  2
AcDbMaterial
  3
ObjectDBX Classes
 90
     1153
280
     0
281
     0
  0
CLASS
  1
SCALE
  2
AcDbScale
  3
ObjectDBX Classes
 90
     1153
280
     0
281
     0
  0
CLASS
  1
TABLESTYLE
  2
AcDbTableStyle
  3
ObjectDBX Classes
 90
     4095
280
     0
281
     0
  0
CLASS
  1
MLEADERSTYLE
  2
AcDbMLeaderStyle
  3
ACDB_MLEADERSTYLE_CLASS
 90
     4095
280
     0
281
     0
  0
CLASS
  1
SUN
  2
AcDbSun
  3
SCENEOE
 90
     1153
280
     0
281
     0
  0
CLASS
  1
ACDBPLACEHOLDER
  2
AcDbPlaceHolder
  3
ObjectDBX Classes
 90
        0
280
     0
281
     0
  0
CLASS
  1
LAYOUT
  2
AcDbLayout
  3
ObjectDBX Classes
 90
        0
280
     0
281
     0
  0
ENDSEC
  0
SECTION
  2
TABLES
  0
TABLE
  2
VPORT
  5
8
330
0
100
AcDbSymbolTable
 70
     1
  0
VPORT
  5
29
330
8
100
AcDbSymbolTableRecord
100
AcDbViewportTableRecord
  2
*Active
 70
     0
 10
0.0
 20
0.0
 11
1.0
 21
1.0
 12
139.7
 22
107.95
 13
0.0
 23
0.0
 14
10.0
 24
10.0
 15
10.0
 25
10.0
 16
0.0
 26
0.0
 36
1.0
 17
0.0
 27
0.0
 37
0.0
 40
215.9
 41
1.2941176471
 42
50.0
 43
0.0
 44
0.0
 50
0.0
 51
0.0
 71
     0
 72
  2000
 73
     1
 74
     3
 75
     0
 76
     0
 77
     0
 78
     0
281
     0
 65
     1
110
0.0
120
0.0
130
0.0
111
1.0
121
0.0
131
0.0
112
0.0
122
1.0
132
0.0
 79
     0
146
0.0
  0
ENDTAB
  0
TABLE
  2
LTYPE
  5
5
330
0
100
AcDbSymbolTable
 70
     6
  0
LTYPE
  5
14
330
5
100
AcDbSymbolTableRecord
100
AcDbLinetypeTableRecord
  2
ByBlock
 70
     0
  3

 72
    65
 73
     0
 40
0.0
  0
LTYPE
  5
15
330
5
100
AcDbSymbolTableRecord
100
AcDbLinetypeTableRecord
  2
ByLayer
 70
     0
  3

 72
    65
 73
     0
 40
0.0
  0
LTYPE
  5
16
330
5
100
AcDbSymbolTableRecord
100
AcDbLinetypeTableRecord
  2
Continuous
 70
     0
  3
Solid line
 72
    65
 73
     0
 40
0.0
  0
LTYPE
  5
6E
330
5
100
AcDbSymbolTableRecord
100
AcDbLinetypeTableRecord
  2
HIDDEN
 70
     0
  3
Hidden __ __ __ __ __ __ __ __ __ __ __ __ __ __
 72
    65
 73
     2
 40
1.905
 49
1.27
 74
     0
 49
-0.635
 74
     0
  0
LTYPE
  5
6F
330
5
100
AcDbSymbolTableRecord
100
AcDbLinetypeTableRecord
  2
PHANTOM
 70
     0
  3
Phantom ______  __  __  ______  __  __  ______
 72
    65
 73
     6
 40
12.7
 49
6.35
 74
     0
 49
-1.27
 74
     0
 49
1.27
 74
     0
 49
-1.27
 74
     0
 49
1.27
 74
     0
 49
-1.27
 74
     0
  0
LTYPE
  5
70
330
5
100
AcDbSymbolTableRecord
100
AcDbLinetypeTableRecord
  2
CENTER
 70
     0
  3
Center ____ _ ____ _ ____ _ ____ _ ____ _ ____
 72
    65
 73
     4
 40
10.16
 49
6.35
 74
     0
 49
-1.27
 74
     0
 49
1.27
 74
     0
 49
-1.27
 74
     0
  0
LTYPE
  5
71
330
5
100
AcDbSymbolTableRecord
100
AcDbLinetypeTableRecord
  2
CENTERX2
 70
     0
  3
Center (2x) ________  __  ________  __  _____
 72
    65
 73
     4
 40
20.32
 49
12.7
 74
     0
 49
-2.54
 74
     0
 49
2.54
 74
     0
 49
-2.54
 74
     0
  0
LTYPE
  5
72
330
5
100
AcDbSymbolTableRecord
100
AcDbLinetypeTableRecord
  2
DOT2
 70
     0
  3
Dot (.5x) ........................................
 72
    65
 73
     2
 40
0.635
 49
0.0
 74
     0
 49
-0.635
 74
     0
  0
ENDTAB
  0
TABLE
  2
LAYER
  5
2
330
0
100
AcDbSymbolTable
 70
    17
  0
LAYER
  5
10
330
2
100
AcDbSymbolTableRecord
100
AcDbLayerTableRecord
  2
0
 70
     0
 62
     7
  6
Continuous
370
    -3
390
F
  0
LAYER
  5
73
330
2
100
AcDbSymbolTableRecord
100
AcDbLayerTableRecord
  2
FORMAT
 70
     0
 62
     7
  6
Continuous
370
    -3
390
F
  0
LAYER
  5
74
330
2
100
AcDbSymbolTableRecord
100
AcDbLayerTableRecord
  2
YARDIMCI_GEOMETRI
 70
     0
 62
    -6
  6
Continuous
290
     0
370
    -3
390
F
  0
LAYER
  5
75
330
2
100
AcDbSymbolTableRecord
100
AcDbLayerTableRecord
  2
SAYFA_CERCEVESI
 70
     0
 62
     7
  6
Continuous
370
    25
390
F
  0
LAYER
  5
76
330
2
100
AcDbSymbolTableRecord
100
AcDbLayerTableRecord
  2
ANTET
 70
     0
 62
     7
  6
Continuous
370
    -3
390
F
  0
LAYER
  5
77
330
2
100
AcDbSymbolTableRecord
100
AcDbLayerTableRecord
  2
OLCU
 70
     0
 62
   150
  6
Continuous
370
    -3
390
F
  0
LAYER
  5
78
330
2
100
AcDbSymbolTableRecord
100
AcDbLayerTableRecord
  2
METIN
 70
     0
 62
    96
  6
Continuous
370
    -3
390
F
  0
LAYER
  5
79
330
2
100
AcDbSymbolTableRecord
100
AcDbLayerTableRecord
  2
BALON
 70
     0
 62
     5
  6
Continuous
370
    -3
390
F
  0
LAYER
  5
7A
330
2
100
AcDbSymbolTableRecord
100
AcDbLayerTableRecord
  2
VURGU
 70
     0
 62
     7
  6
Continuous
370
    -3
390
F
  0
LAYER
  5
7B
330
2
100
AcDbSymbolTableRecord
100
AcDbLayerTableRecord
  2
SILIK
 70
     0
 62
     7
  6
Continuous
370
    -3
390
F
  0
LAYER
  5
7C
330
2
100
AcDbSymbolTableRecord
100
AcDbLayerTableRecord
  2
MODEL
 70
     0
 62
     7
  6
Continuous
370
    -3
390
F
  0
LAYER
  5
7D
330
2
100
AcDbSymbolTableRecord
100
AcDbLayerTableRecord
  2
DETAYLANDıRMA
 70
     0
 62
   190
  6
Continuous
370
    -3
390
F
  0
LAYER
  5
7E
330
2
100
AcDbSymbolTableRecord
100
AcDbLayerTableRecord
  2
TOLERANS
 70
     0
 62
   230
  6
Continuous
370
    -3
390
F
  0
LAYER
  5
7F
330
2
100
AcDbSymbolTableRecord
100
AcDbLayerTableRecord
  2
MERKEZ_CIZGILERI
 70
     0
 62
    30
  6
Continuous
370
    -3
390
F
  0
LAYER
  5
80
330
2
100
AcDbSymbolTableRecord
100
AcDbLayerTableRecord
  2
KESIT-DETAY_CIZGILERI
 70
     0
 62
     7
  6
Continuous
370
    -3
390
F
  0
LAYER
  5
81
330
2
100
AcDbSymbolTableRecord
100
AcDbLayerTableRecord
  2
\U+041E\U+0421\U+0415\U+0412\U+042B\U+0415
 70
     0
 62
     7
  6
Continuous
370
    -3
390
F
  0
LAYER
  5
82
330
2
100
AcDbSymbolTableRecord
100
AcDbLayerTableRecord
  2
\U+0412\U+041E\U+0414\U+042F\U+041D\U+042B\U+0415_\U+0417\U+041D\U+0410\U+041A\U+0418
 70
     0
 62
    11
  6
Continuous
370
    -3
390
F
  0
ENDTAB
  0
TABLE
  2
STYLE
  5
3
330
0
100
AcDbSymbolTable
 70
     1
  0
STYLE
  5
11
330
3
100
AcDbSymbolTableRecord
100
AcDbTextStyleTableRecord
  2
Standard
 70
     0
 40
0.0
 41
1.0
 50
0.0
 71
     0
 42
3.5
  3
txt
  4

  0
ENDTAB
  0
TABLE
  2
VIEW
  5
6
330
0
100
AcDbSymbolTable
 70
     0
  0
ENDTAB
  0
TABLE
  2
UCS
  5
7
330
0
100
AcDbSymbolTable
 70
     0
  0
ENDTAB
  0
TABLE
  2
APPID
  5
9
330
0
100
AcDbSymbolTable
 70
     1
  0
APPID
  5
12
330
9
100
AcDbSymbolTableRecord
100
AcDbRegAppTableRecord
  2
ACAD
 70
     0
  0
ENDTAB
  0
TABLE
  2
DIMSTYLE
  5
A
330
0
100
AcDbSymbolTable
 70
     1
100
AcDbDimStyleTable
  0
DIMSTYLE
105
27
330
A
100
AcDbSymbolTableRecord
100
AcDbDimStyleTableRecord
  2
ISO-25
 70
     0
 41
2.5
 42
0.625
 43
3.75
 44
1.25
 73
     0
 74
     0
 77
     1
 78
     8
140
2.5
141
2.5
143
0.0393700787
147
0.625
171
     3
172
     1
178
     0
271
     2
272
     2
274
     3
278
    44
283
     0
284
     8
340
11
  0
ENDTAB
  0
TABLE
  2
BLOCK_RECORD
  5
1
330
0
100
AcDbSymbolTable
 70
     2
  0
BLOCK_RECORD
  5
1F
330
1
100
AcDbSymbolTableRecord
100
AcDbBlockTableRecord
  2
*Model_Space
340
22
  0
BLOCK_RECORD
  5
1B
330
1
100
AcDbSymbolTableRecord
100
AcDbBlockTableRecord
  2
*Paper_Space
340
1E
  0
BLOCK_RECORD
  5
23
330
1
100
AcDbSymbolTableRecord
100
AcDbBlockTableRecord
  2
*Paper_Space0
340
26
  0
BLOCK_RECORD
  5
88
330
1
100
AcDbSymbolTableRecord
100
AcDbBlockTableRecord
  2
SW_CENTERMARKSYMBOL_0
340
0
102
{BLKREFS
331
93
102
}
  0
ENDTAB
  0
ENDSEC
  0
SECTION
  2
BLOCKS
  0
BLOCK
  5
20
330
1F
100
AcDbEntity
  8
0
100
AcDbBlockBegin
  2
*Model_Space
 70
     0
 10
0.0
 20
0.0
 30
0.0
  3
*Model_Space
  1

  0
ENDBLK
  5
21
330
1F
100
AcDbEntity
  8
0
100
AcDbBlockEnd
  0
BLOCK
  5
1C
330
1B
100
AcDbEntity
 67
     1
  8
0
100
AcDbBlockBegin
  2
*Paper_Space
 70
     0
 10
0.0
 20
0.0
 30
0.0
  3
*Paper_Space
  1

  0
ENDBLK
  5
1D
330
1B
100
AcDbEntity
 67
     1
  8
0
100
AcDbBlockEnd
  0
BLOCK
  5
24
330
23
100
AcDbEntity
  8
0
100
AcDbBlockBegin
  2
*Paper_Space0
 70
     0
 10
0.0
 20
0.0
 30
0.0
  3
*Paper_Space0
  1

  0
ENDBLK
  5
25
330
23
100
AcDbEntity
  8
0
100
AcDbBlockEnd
  0
BLOCK
  5
89
330
88
100
AcDbEntity
  8
0
100
AcDbBlockBegin
  2
SW_CENTERMARKSYMBOL_0
 70
     0
 10
0.0
 20
0.0
 30
0.0
  3
SW_CENTERMARKSYMBOL_0
  1

  0
LINE
  5
8B
330
88
100
AcDbEntity
  8
FORMAT
 62
     0
100
AcDbLine
 10
0.0
 20
0.0
 30
0.0
 11
0.0
 21
2.5
 31
0.0
  0
LINE
  5
8C
330
88
100
AcDbEntity
  8
FORMAT
 62
     0
100
AcDbLine
 10
0.0
 20
0.0
 30
0.0
 11
-2.5
 21
0.0
 31
0.0
  0
LINE
  5
8D
330
88
100
AcDbEntity
  8
FORMAT
 62
     0
100
AcDbLine
 10
0.0
 20
0.0
 30
0.0
 11
0.0
 21
-2.5
 31
0.0
  0
LINE
  5
8E
330
88
100
AcDbEntity
  8
FORMAT
 62
     0
100
AcDbLine
 10
0.0
 20
0.0
 30
0.0
 11
2.5
 21
0.0
 31
0.0
  0
LINE
  5
8F
330
88
100
AcDbEntity
  8
FORMAT
 62
     0
100
AcDbLine
 10
0.0
 20
5.0
 30
0.0
 11
0.0
 21
142.5
 31
0.0
  0
LINE
  5
90
330
88
100
AcDbEntity
  8
FORMAT
 62
     0
100
AcDbLine
 10
-5.0
 20
0.0
 30
0.0
 11
-142.5
 21
0.0
 31
0.0
  0
LINE
  5
91
330
88
100
AcDbEntity
  8
FORMAT
 62
     0
100
AcDbLine
 10
0.0
 20
-5.0
 30
0.0
 11
0.0
 21
-142.5
 31
0.0
  0
LINE
  5
92
330
88
100
AcDbEntity
  8
FORMAT
 62
     0
100
AcDbLine
 10
5.0
 20
0.0
 30
0.0
 11
142.5
 21
0.0
 31
0.0
  0
ENDBLK
  5
8A
330
88
100
AcDbEntity
  8
0
100
AcDbBlockEnd
  0
ENDSEC
  0
SECTION
  2
ENTITIES
  0
CIRCLE
  5
83
330
1F
100
AcDbEntity
  8
0
  6
Continuous
 62
     7
370
    25
100
AcDbCircle
 10
130.6810329512
 20
112.0420513222
 30
0.0
 40
140.0
  0
CIRCLE
  5
84
330
1F
100
AcDbEntity
  8
0
  6
Continuous
 62
     7
370
    25
100
AcDbCircle
 10
130.6810329512
 20
112.0420513222
 30
0.0
 40
123.4
  0
CIRCLE
  5
85
330
1F
100
AcDbEntity
  8
0
  6
Continuous
 62
     7
370
    25
100
AcDbCircle
 10
130.6810329512
 20
112.0420513222
 30
0.0
 40
122.9062621226259
  0
CIRCLE
  5
86
330
1F
100
AcDbEntity
  8
0
  6
Continuous
 62
     7
370
    25
100
AcDbCircle
 10
130.6810329512
 20
112.0420513222
 30
0.0
 40
79.7937378773741
  0
CIRCLE
  5
87
330
1F
100
AcDbEntity
  8
0
  6
Continuous
 62
     7
370
    25
100
AcDbCircle
 10
130.6810329512
 20
112.0420513222
 30
0.0
 40
79.30000000000003
  0
INSERT
  5
93
330
1F
100
AcDbEntity
  8
FORMAT
 62
     7
100
AcDbBlockReference
  2
SW_CENTERMARKSYMBOL_0
 10
130.6810329512
 20
112.0420513222
 30
0.0
  0
ARC
  5
94
330
1F
100
AcDbEntity
  8
0
  6
Continuous
 62
     7
370
    25
100
AcDbCircle
 10
-324.5285871689
 20
250.0420513222
 30
0.0
 40
2.0
100
AcDbArc
 50
64.3231843182
 51
90.0
  0
ARC
  5
95
330
1F
100
AcDbEntity
  8
0
  6
Continuous
 62
     7
370
    25
100
AcDbCircle
 10
-324.5285871689
 20
-25.9579486778
 30
0.0
 40
1.999999999999982
100
AcDbArc
 50
270.0
 51
295.6768156818
  0
LINE
  5
96
330
1F
100
AcDbEntity
  8
0
  6
Continuous
 62
     7
370
    25
100
AcDbLine
 10
-324.5285858482
 20
252.0420519183
 30
0.0
 11
-463.0727876991
 21
252.0420519183
 31
0.0
  0
LINE
  5
97
330
1F
100
AcDbEntity
  8
0
  6
Continuous
 62
     7
370
    25
100
AcDbLine
 10
-463.0727876991
 20
-27.9579492738
 30
0.0
 11
-324.5285858482
 21
-27.9579492738
 31
0.0
  0
LINE
  5
98
330
1F
100
AcDbEntity
  8
0
  6
Continuous
 62
     7
370
    25
100
AcDbLine
 10
-323.6619976431
 20
-27.7604492834
 30
0.0
 11
-220.4835784704
 21
21.8445552061
 31
0.0
  0
LINE
  5
99
330
1F
100
AcDbEntity
  8
0
  6
Continuous
 62
     7
370
    25
100
AcDbLine
 10
-220.4835784704
 20
202.2395474384
 30
0.0
 11
-323.6619976431
 21
251.8445519278
 31
0.0
  0
ARC
  5
9A
330
1F
100
AcDbEntity
  8
0
  6
Continuous
 62
     7
370
    25
100
AcDbCircle
 10
-219.6169892574
 20
204.0420513222
 30
0.0
 40
2.0
100
AcDbArc
 50
244.3231843182
 51
270.0
  0
ARC
  5
9B
330
1F
100
AcDbEntity
  8
0
  6
Continuous
 62
     7
370
    25
100
AcDbCircle
 10
-219.6169892574
 20
20.0420513222
 30
0.0
 40
2.0
100
AcDbArc
 50
90.0
 51
115.6768156818
  0
LINE
  5
9C
330
1F
100
AcDbEntity
  8
0
  6
Continuous
 62
     7
370
    25
100
AcDbLine
 10
-115.0727828116
 20
202.0420548985
 30
0.0
 11
-219.6169902653
 21
202.0420548985
 31
0.0
  0
LINE
  5
9D
330
1F
100
AcDbEntity
  8
0
  6
Continuous
 62
     7
370
    25
100
AcDbLine
 10
-219.6169902653
 20
22.0420477459
 30
0.0
 11
-115.0727828116
 21
22.0420477459
 31
0.0
  0
LINE
  5
9E
330
1F
100
AcDbEntity
  8
0
  6
Continuous
 62
     7
370
    25
100
AcDbLine
 10
-463.0727876991
 20
252.0420519183
 30
0.0
 11
-463.0727876991
 21
-27.9579492738
 31
0.0
  0
LINE
  5
9F
330
1F
100
AcDbEntity
  8
0
  6
Continuous
 62
     7
370
    25
100
AcDbLine
 10
-115.0727828116
 20
202.0420548985
 30
0.0
 11
-115.0727828116
 21
22.0420477459
 31
0.0
  0
LINE
  5
A0
330
1F
100
AcDbEntity
  8
0
  6
Continuous
 62
     1
370
    25
100
AcDbLine
 10
-323.6619976431
 20
251.8445519278
 30
0.0
 11
-323.6619976431
 21
-27.7604492834
 31
0.0
  0
LINE
  5
A1
330
1F
100
AcDbEntity
  8
0
  6
Continuous
 62
     1
370
    25
100
AcDbLine
 10
-324.5285858482
 20
252.0420519183
 30
0.0
 11
-324.5285858482
 21
-27.9579492738
 31
0.0
  0
LINE
  5
A2
330
1F
100
AcDbEntity
  8
0
  6
Continuous
 62
     1
370
    25
100
AcDbLine
 10
-220.4835784704
 20
202.2395474384
 30
0.0
 11
-220.4835784704
 21
21.8445552061
 31
0.0
  0
LINE
  5
A3
330
1F
100
AcDbEntity
  8
0
  6
Continuous
 62
     1
370
    25
100
AcDbLine
 10
-219.6169902653
 20
202.0420548985
 30
0.0
 11
-219.6169902653
 21
22.0420477459
 31
0.0
  0
ARC
  5
A4
330
1F
100
AcDbEntity
  8
0
  6
Continuous
 62
     7
370
    25
100
AcDbCircle
 10
268.6810329512
 20
544.1915876497
 30
0.0
 40
2.000000000000003
100
AcDbArc
 50
334.3231843182
 51
0.0
  0
ARC
  5
A5
330
1F
100
AcDbEntity
  8
0
  6
Continuous
 62
     7
370
    25
100
AcDbCircle
 10
-7.3189670488
 20
544.1915876497
 30
0.0
 40
2.000000000000006
100
AcDbArc
 50
180.0
 51
205.6768156818
  0
LINE
  5
A6
330
1F
100
AcDbEntity
  8
0
  6
Continuous
 62
     7
370
    25
100
AcDbLine
 10
270.6810335472
 20
544.191586329
 30
0.0
 11
270.6810335472
 21
682.7357881799
 31
0.0
  0
LINE
  5
A7
330
1F
100
AcDbEntity
  8
0
  6
Continuous
 62
     7
370
    25
100
AcDbLine
 10
-9.3189676449
 20
682.7357881799
 30
0.0
 11
-9.3189676449
 21
544.191586329
 31
0.0
  0
LINE
  5
A8
330
1F
100
AcDbEntity
  8
0
  6
Continuous
 62
     7
370
    25
100
AcDbLine
 10
-9.1214676544
 20
543.3249981239
 30
0.0
 11
40.483536835
 21
440.1465789511
 31
0.0
  0
LINE
  5
A9
330
1F
100
AcDbEntity
  8
0
  6
Continuous
 62
     7
370
    25
100
AcDbLine
 10
220.8785290673
 20
440.1465789511
 30
0.0
 11
270.4835335568
 21
543.3249981239
 31
0.0
  0
ARC
  5
AA
330
1F
100
AcDbEntity
  8
0
  6
Continuous
 62
     7
370
    25
100
AcDbCircle
 10
222.6810329512
 20
439.2799897382
 30
0.0
 40
2.0
100
AcDbArc
 50
154.3231843182
 51
180.0
  0
ARC
  5
AB
330
1F
100
AcDbEntity
  8
0
  6
Continuous
 62
     7
370
    25
100
AcDbCircle
 10
38.6810329512
 20
439.2799897382
 30
0.0
 40
2.000000000000007
100
AcDbArc
 50
0.0
 51
25.6768156818
  0
LINE
  5
AC
330
1F
100
AcDbEntity
  8
0
  6
Continuous
 62
     7
370
    25
100
AcDbLine
 10
220.6810365274
 20
334.7357832923
 30
0.0
 11
220.6810365274
 21
439.279990746
 31
0.0
  0
LINE
  5
AD
330
1F
100
AcDbEntity
  8
0
  6
Continuous
 62
     7
370
    25
100
AcDbLine
 10
40.6810293749
 20
439.279990746
 30
0.0
 11
40.6810293749
 21
334.7357832923
 31
0.0
  0
LINE
  5
AE
330
1F
100
AcDbEntity
  8
0
  6
Continuous
 62
     7
370
    25
100
AcDbLine
 10
270.6810335472
 20
682.7357881799
 30
0.0
 11
-9.3189676449
 21
682.7357881799
 31
0.0
  0
LINE
  5
AF
330
1F
100
AcDbEntity
  8
0
  6
Continuous
 62
     7
370
    25
100
AcDbLine
 10
220.6810365274
 20
334.7357832923
 30
0.0
 11
40.6810293749
 21
334.7357832923
 31
0.0
  0
LINE
  5
B0
330
1F
100
AcDbEntity
  8
0
  6
Continuous
 62
     1
370
    25
100
AcDbLine
 10
270.4835335568
 20
543.3249981239
 30
0.0
 11
-9.1214676544
 21
543.3249981239
 31
0.0
  0
LINE
  5
B1
330
1F
100
AcDbEntity
  8
0
  6
Continuous
 62
     1
370
    25
100
AcDbLine
 10
270.6810335472
 20
544.191586329
 30
0.0
 11
-9.3189676449
 21
544.191586329
 31
0.0
  0
LINE
  5
B2
330
1F
100
AcDbEntity
  8
0
  6
Continuous
 62
     1
370
    25
100
AcDbLine
 10
220.8785290673
 20
440.1465789511
 30
0.0
 11
40.483536835
 21
440.1465789511
 31
0.0
  0
LINE
  5
B3
330
1F
100
AcDbEntity
  8
0
  6
Continuous
 62
     1
370
    25
100
AcDbLine
 10
220.6810365274
 20
439.279990746
 30
0.0
 11
40.6810293749
 21
439.279990746
 31
0.0
  0
ARC
  5
B4
330
1F
100
AcDbEntity
  8
0
  6
Continuous
 62
     7
370
    25
100
AcDbCircle
 10
630.0282012105
 20
-25.9579486778
 30
0.0
 40
2.000000000000006
100
AcDbArc
 50
244.3231843182
 51
270.0
  0
ARC
  5
B5
330
1F
100
AcDbEntity
  8
0
  6
Continuous
 62
     7
370
    25
100
AcDbCircle
 10
630.0282012105
 20
250.0420513222
 30
0.0
 40
2.000000000000003
100
AcDbArc
 50
90.0
 51
115.6768156818
  0
LINE
  5
B6
330
1F
100
AcDbEntity
  8
0
  6
Continuous
 62
     7
370
    25
100
AcDbLine
 10
630.0281998898
 20
-27.9579492738
 30
0.0
 11
768.5724017407
 21
-27.9579492738
 31
0.0
  0
LINE
  5
B7
330
1F
100
AcDbEntity
  8
0
  6
Continuous
 62
     7
370
    25
100
AcDbLine
 10
768.5724017407
 20
252.0420519183
 30
0.0
 11
630.0281998898
 21
252.0420519183
 31
0.0
  0
LINE
  5
B8
330
1F
100
AcDbEntity
  8
0
  6
Continuous
 62
     7
370
    25
100
AcDbLine
 10
629.1616116847
 20
251.8445519278
 30
0.0
 11
525.983192512
 21
202.2395474384
 31
0.0
  0
LINE
  5
B9
330
1F
100
AcDbEntity
  8
0
  6
Continuous
 62
     7
370
    25
100
AcDbLine
 10
525.983192512
 20
21.8445552061
 30
0.0
 11
629.1616116847
 21
-27.7604492834
 31
0.0
  0
ARC
  5
BA
330
1F
100
AcDbEntity
  8
0
  6
Continuous
 62
     7
370
    25
100
AcDbCircle
 10
525.116603299
 20
20.0420513222
 30
0.0
 40
2.0
100
AcDbArc
 50
64.3231843182
 51
90.0
  0
ARC
  5
BB
330
1F
100
AcDbEntity
  8
0
  6
Continuous
 62
     7
370
    25
100
AcDbCircle
 10
525.116603299
 20
204.0420513222
 30
0.0
 40
2.0
100
AcDbArc
 50
270.0
 51
295.6768156818
  0
LINE
  5
BC
330
1F
100
AcDbEntity
  8
0
  6
Continuous
 62
     7
370
    25
100
AcDbLine
 10
420.5723968532
 20
22.0420477459
 30
0.0
 11
525.1166043069
 21
22.0420477459
 31
0.0
  0
LINE
  5
BD
330
1F
100
AcDbEntity
  8
0
  6
Continuous
 62
     7
370
    25
100
AcDbLine
 10
525.1166043069
 20
202.0420548985
 30
0.0
 11
420.5723968532
 21
202.0420548985
 31
0.0
  0
LINE
  5
BE
330
1F
100
AcDbEntity
  8
0
  6
Continuous
 62
     7
370
    25
100
AcDbLine
 10
768.5724017407
 20
112.0420513222
 30
0.0
 11
768.5724017407
 21
252.0420519183
 31
0.0
  0
LINE
  5
BF
330
1F
100
AcDbEntity
  8
0
  6
Continuous
 62
     7
370
    25
100
AcDbLine
 10
768.5724017407
 20
-27.9579492738
 30
0.0
 11
768.5724017407
 21
112.0420513222
 31
0.0
  0
LINE
  5
C0
330
1F
100
AcDbEntity
  8
0
  6
Continuous
 62
     7
370
    25
100
AcDbLine
 10
420.5723968532
 20
112.0420513222
 30
0.0
 11
420.5723968532
 21
202.0420548985
 31
0.0
  0
LINE
  5
C1
330
1F
100
AcDbEntity
  8
0
  6
Continuous
 62
     7
370
    25
100
AcDbLine
 10
420.5723968532
 20
22.0420477459
 30
0.0
 11
420.5723968532
 21
112.0420513222
 31
0.0
  0
LINE
  5
C2
330
1F
100
AcDbEntity
  8
0
  6
Continuous
 62
     1
370
    25
100
AcDbLine
 10
629.1616116847
 20
112.0420513222
 30
0.0
 11
629.1616116847
 21
251.8445519278
 31
0.0
  0
LINE
  5
C3
330
1F
100
AcDbEntity
  8
0
  6
Continuous
 62
     1
370
    25
100
AcDbLine
 10
629.1616116847
 20
-27.7604492834
 30
0.0
 11
629.1616116847
 21
112.0420513222
 31
0.0
  0
LINE
  5
C4
330
1F
100
AcDbEntity
  8
0
  6
Continuous
 62
     1
370
    25
100
AcDbLine
 10
630.0281998898
 20
112.0420513222
 30
0.0
 11
630.0281998898
 21
252.0420519183
 31
0.0
  0
LINE
  5
C5
330
1F
100
AcDbEntity
  8
0
  6
Continuous
 62
     1
370
    25
100
AcDbLine
 10
630.0281998898
 20
-27.9579492738
 30
0.0
 11
630.0281998898
 21
112.0420513222
 31
0.0
  0
LINE
  5
C6
330
1F
100
AcDbEntity
  8
0
  6
Continuous
 62
     1
370
    25
100
AcDbLine
 10
525.983192512
 20
112.0420513222
 30
0.0
 11
525.983192512
 21
202.2395474384
 31
0.0
  0
LINE
  5
C7
330
1F
100
AcDbEntity
  8
0
  6
Continuous
 62
     1
370
    25
100
AcDbLine
 10
525.983192512
 20
21.8445552061
 30
0.0
 11
525.983192512
 21
112.0420513222
 31
0.0
  0
LINE
  5
C8
330
1F
100
AcDbEntity
  8
0
  6
Continuous
 62
     1
370
    25
100
AcDbLine
 10
525.1166043069
 20
112.0420513222
 30
0.0
 11
525.1166043069
 21
202.0420548985
 31
0.0
  0
LINE
  5
C9
330
1F
100
AcDbEntity
  8
0
  6
Continuous
 62
     1
370
    25
100
AcDbLine
 10
525.1166043069
 20
22.0420477459
 30
0.0
 11
525.1166043069
 21
112.0420513222
 31
0.0
  0
ARC
  5
CA
330
1F
100
AcDbEntity
  8
0
  6
Continuous
 62
     7
370
    25
100
AcDbCircle
 10
-7.3189670488
 20
-342.7516315554
 30
0.0
 40
1.999999999999982
100
AcDbArc
 50
154.3231843182
 51
180.0
  0
ARC
  5
CB
330
1F
100
AcDbEntity
  8
0
  6
Continuous
 62
     7
370
    25
100
AcDbCircle
 10
268.6810329512
 20
-342.7516315554
 30
0.0
 40
2.0
100
AcDbArc
 50
0.0
 51
25.6768156818
  0
LINE
  5
CC
330
1F
100
AcDbEntity
  8
0
  6
Continuous
 62
     7
370
    25
100
AcDbLine
 10
-9.3189676449
 20
-342.7516302347
 30
0.0
 11
-9.3189676449
 21
-481.2958320856
 31
0.0
  0
LINE
  5
CD
330
1F
100
AcDbEntity
  8
0
  6
Continuous
 62
     7
370
    25
100
AcDbLine
 10
270.6810335472
 20
-481.2958320856
 30
0.0
 11
270.6810335472
 21
-342.7516302347
 31
0.0
  0
LINE
  5
CE
330
1F
100
AcDbEntity
  8
0
  6
Continuous
 62
     7
370
    25
100
AcDbLine
 10
270.4835335568
 20
-341.8850420296
 30
0.0
 11
220.8785290673
 21
-238.7066228569
 31
0.0
  0
LINE
  5
CF
330
1F
100
AcDbEntity
  8
0
  6
Continuous
 62
     7
370
    25
100
AcDbLine
 10
40.483536835
 20
-238.7066228569
 30
0.0
 11
-9.1214676544
 21
-341.8850420296
 31
0.0
  0
ARC
  5
D0
330
1F
100
AcDbEntity
  8
0
  6
Continuous
 62
     7
370
    25
100
AcDbCircle
 10
38.6810329512
 20
-237.8400336439
 30
0.0
 40
2.000000000000007
100
AcDbArc
 50
334.3231843182
 51
0.0
  0
ARC
  5
D1
330
1F
100
AcDbEntity
  8
0
  6
Continuous
 62
     7
370
    25
100
AcDbCircle
 10
222.6810329512
 20
-237.8400336439
 30
0.0
 40
2.0
100
AcDbArc
 50
180.0
 51
205.6768156818
  0
LINE
  5
D2
330
1F
100
AcDbEntity
  8
0
  6
Continuous
 62
     7
370
    25
100
AcDbLine
 10
40.6810293749
 20
-133.2958271981
 30
0.0
 11
40.6810293749
 21
-237.8400346518
 31
0.0
  0
LINE
  5
D3
330
1F
100
AcDbEntity
  8
0
  6
Continuous
 62
     7
370
    25
100
AcDbLine
 10
220.6810365274
 20
-237.8400346518
 30
0.0
 11
220.6810365274
 21
-133.2958271981
 31
0.0
  0
LINE
  5
D4
330
1F
100
AcDbEntity
  8
0
  6
Continuous
 62
     7
370
    25
100
AcDbLine
 10
-9.3189676449
 20
-481.2958320856
 30
0.0
 11
270.6810335472
 21
-481.2958320856
 31
0.0
  0
LINE
  5
D5
330
1F
100
AcDbEntity
  8
0
  6
Continuous
 62
     7
370
    25
100
AcDbLine
 10
40.6810293749
 20
-133.2958271981
 30
0.0
 11
220.6810365274
 21
-133.2958271981
 31
0.0
  0
LINE
  5
D6
330
1F
100
AcDbEntity
  8
0
  6
Continuous
 62
     1
370
    25
100
AcDbLine
 10
-9.1214676544
 20
-341.8850420296
 30
0.0
 11
270.4835335568
 21
-341.8850420296
 31
0.0
  0
LINE
  5
D7
330
1F
100
AcDbEntity
  8
0
  6
Continuous
 62
     1
370
    25
100
AcDbLine
 10
-9.3189676449
 20
-342.7516302347
 30
0.0
 11
270.6810335472
 21
-342.7516302347
 31
0.0
  0
LINE
  5
D8
330
1F
100
AcDbEntity
  8
0
  6
Continuous
 62
     1
370
    25
100
AcDbLine
 10
40.483536835
 20
-238.7066228569
 30
0.0
 11
220.8785290673
 21
-238.7066228569
 31
0.0
  0
LINE
  5
D9
330
1F
100
AcDbEntity
  8
0
  6
Continuous
 62
     1
370
    25
100
AcDbLine
 10
40.6810293749
 20
-237.8400346518
 30
0.0
 11
220.6810365274
 21
-237.8400346518
 31
0.0
  0
LINE
  5
DA
330
1F
100
AcDbEntity
  8
0
  6
Continuous
 62
     7
370
    25
100
AcDbLine
 10
627.2817208809
 20
-180.7323452694
 30
0.0
 11
529.3161762581
 21
-124.1780401509
 31
0.0
  0
LINE
  5
DB
330
1F
100
AcDbEntity
  8
0
  6
Continuous
 62
     7
370
    25
100
AcDbLine
 10
389.3275578817
 20
-366.671720546
 30
0.0
 11
487.2931025046
 21
-423.2260256646
 31
0.0
  0
SPLINE
  5
DC
330
1F
100
AcDbEntity
  8
0
  6
Continuous
 62
     7
370
    25
100
AcDbSpline
210
0.0
220
0.0
230
1.0
 70
     8
 71
     3
 72
    10
 73
     6
 74
     0
 42
0.000000001
 43
0.00000001
 40
0.0
 40
0.0
 40
0.0
 40
0.0
 40
0.3056312978116826
 40
0.8095297042908536
 40
1.0
 40
1.0
 40
1.0
 40
1.0
 10
641.1542269935602
 20
-192.7411489435831
 30
0.0
 10
640.6376451930056
 20
-192.0986394333044
 30
0.0
 10
639.2693680720458
 20
-190.3968159041562
 30
0.0
 10
637.4404526253636
 20
-188.4687040679789
 30
0.0
 10
636.0737364090943
 20
-187.2686764744351
 30
0.0
 10
635.6988363868971
 20
-186.9395003323061
 30
0.0
  0
SPLINE
  5
DD
330
1F
100
AcDbEntity
  8
0
  6
Continuous
 62
     7
370
    25
100
AcDbSpline
210
0.0
220
0.0
230
1.0
 70
     8
 71
     3
 72
    10
 73
     6
 74
     0
 42
0.000000001
 43
0.00000001
 40
0.0
 40
0.0
 40
0.0
 40
0.0
 40
0.2182317742335239
 40
0.8734428809900836
 40
1.0
 40
1.0
 40
1.0
 40
1.0
 10
496.7201697705012
 20
-427.3628809794187
 30
0.0
 10
497.133963406869
 20
-427.5054360549964
 30
0.0
 10
498.7901159408154
 20
-428.0759932818237
 30
0.0
 10
500.7582042160964
 20
-428.5800094871189
 30
0.0
 10
502.3471890345605
 20
-428.846490643585
 30
0.0
 10
502.6044230000088
 20
-428.8896301398207
 30
0.0
  0
LINE
  5
DE
330
1F
100
AcDbEntity
  8
0
  6
Continuous
 62
     7
370
    25
100
AcDbLine
 10
515.9353289384
 20
-429.9169347855
 30
0.0
 11
603.7835436496
 21
-426.7651651594
 31
0.0
  0
LINE
  5
DF
330
1F
100
AcDbEntity
  8
0
  6
Continuous
 62
     7
370
    25
100
AcDbLine
 10
688.6012313655
 20
-279.8407030769
 30
0.0
 11
647.39934154
 21
-202.1899046773
 31
0.0
  0
LINE
  5
E0
330
1F
100
AcDbEntity
  8
0
  6
Continuous
 62
     7
370
    25
100
AcDbLine
 10
750.391374634
 20
-309.5354954448
 30
0.0
 11
684.0302449597
 21
-271.2260307236
 31
0.0
  0
LINE
  5
E1
330
1F
100
AcDbEntity
  8
0
  6
Continuous
 62
     7
370
    25
100
AcDbLine
 10
594.0375564493
 20
-427.1148274356
 30
0.0
 11
660.3986861237
 21
-465.4242921568
 31
0.0
  0
LWPOLYLINE
  5
E2
330
1F
100
AcDbEntity
  8
0
  6
Continuous
 62
     7
370
    25
100
AcDbPolyline
 90
      126
 70
   128
 43
0.0
 10
360.3269172823
 20
-302.5734484194
 10
360.4519564451
 20
-296.7575498471
 10
360.8267367588
 20
-290.8119876488
 10
361.4503415294
 20
-284.7517637701
 10
362.3211691766
 20
-278.5922025286
 10
363.4370280643
 20
-272.3488567058
 10
364.7951048905
 20
-266.037498038
 10
366.3919541501
 20
-259.6740761506
 10
368.223561356
 20
-253.2746516433
 10
370.2852903548
 20
-246.8554006475
 10
372.5719307422
 20
-240.4325357432
 10
375.0777136685
 20
-234.0222846672
 10
377.7963013013
 20
-227.640832517
 10
380.7208289726
 20
-221.3043095873
 10
383.8439104473
 20
-215.0287153243
 10
387.1576537279
 20
-208.8299031178
 10
390.653692665
 20
-202.7235316345
 10
394.3231922256
 20
-196.7250313586
 10
398.1568853712
 20
-190.8495467993
 10
402.1450888634
 20
-185.1119273674
 10
406.2777190688
 20
-179.5266634976
 10
410.5443499107
 20
-174.1078653609
 10
414.9341917959
 20
-168.8692141934
 10
419.4361653715
 20
-163.8239623026
 10
424.0388909884
 20
-158.9848235603
 10
428.7307466533
 20
-154.3640555378
 10
433.4998759307
 20
-149.973308935
 10
438.3342340417
 20
-145.8236739729
 10
443.2216089368
 20
-141.925656061
 10
448.1496555407
 20
-138.2890708563
 10
453.1059227524
 20
-134.9231260159
 10
458.0778926287
 20
-131.8363255723
 10
463.05300475
 20
-129.0364558671
 10
468.0186921116
 20
-126.5305891668
 10
472.9624100992
 20
-124.3250547675
 10
477.8716710625
 20
-122.4254433713
 10
482.7340726328
 20
-120.8365299016
 10
487.5373355891
 20
-119.5623368153
 10
492.2693203221
 20
-118.6060880965
 10
496.9180782002
 20
-117.9701917705
 10
501.4718660577
 20
-117.6562558747
 10
505.9191804392
 20
-117.6650747741
 10
510.2487839411
 20
-117.9966261212
 10
514.4497394563
 20
-118.6500754224
 10
518.511441784
 20
-119.6237638735
 10
522.4236228982
 20
-120.9152418205
 10
526.1764046314
 20
-122.521238346
 10
529.7603039426
 20
-124.437700814
 10
533.1662750645
 20
-126.6597887898
 10
536.3857042348
 20
-129.1818892491
 10
539.4104623803
 20
-131.9976287499
 10
542.2329103845
 20
-135.0998947267
 10
544.8459201618
 20
-138.480847659
 10
547.2428904619
 20
-142.1319545337
 10
549.4177626755
 20
-146.0439858048
 10
551.3650419071
 20
-150.2070640646
 10
553.0798180489
 20
-154.6106701296
 10
554.5577499755
 20
-159.2436795414
 10
555.7951076908
 20
-164.0943929888
 10
556.7887617913
 20
-169.1505530374
 10
557.5362150762
 20
-174.3993867179
 10
558.0355604007
 20
-179.8276405044
 10
558.2855544326
 20
-185.4215949591
 10
558.2855544326
 20
-191.1671244235
 10
558.0355604007
 20
-197.0497158437
 10
557.5362150762
 20
-203.0545014699
 10
556.7887617913
 20
-209.166326344
 10
555.7951076908
 20
-215.3697349971
 10
554.5577499755
 20
-221.6490712535
 10
553.0798180489
 20
-227.9884645463
 10
551.3650419071
 20
-234.3719090026
 10
549.4177626755
 20
-240.7832680072
 10
547.2428904619
 20
-247.2063532868
 10
544.8459201618
 20
-253.6249431626
 10
542.2329103845
 20
-260.0228129668
 10
539.4104623803
 20
-266.3838080453
 10
536.3857042348
 20
-272.6918589649
 10
533.1662750645
 20
-278.9310332241
 10
529.7603039426
 20
-285.0855717527
 10
526.1764046314
 20
-291.1399162881
 10
522.4236228982
 20
-297.0787823751
 10
518.511441784
 20
-302.8871684915
 10
514.4497394563
 20
-308.5503986304
 10
510.2487839411
 20
-314.0541679275
 10
505.9191804392
 20
-319.3845730743
 10
501.4718660577
 20
-324.528151862
 10
496.9180782002
 20
-329.4719075135
 10
492.2693203221
 20
-334.2033527864
 10
487.5373355891
 20
-338.7105373479
 10
482.7340726328
 20
-342.9820736268
 10
477.8716710625
 20
-347.0071695126
 10
472.9624100992
 20
-350.7756701754
 10
468.0186921116
 20
-354.2780310686
 10
463.05300475
 20
-357.5054249602
 10
458.0778926287
 20
-360.4496974428
 10
453.1059227524
 20
-363.103411228
 10
448.1496555407
 20
-365.4598507059
 10
443.2216089368
 20
-367.5130669993
 10
438.3342340417
 20
-369.2578920299
 10
433.4998759307
 20
-370.6898881344
 10
428.7307466533
 20
-371.80546099
 10
424.0388909884
 20
-372.6017942119
 10
419.4361653715
 20
-373.0768493511
 10
414.9341917959
 20
-373.229465511
 10
410.5443499107
 20
-373.0592179001
 10
406.2777190688
 20
-372.5665668775
 10
402.1450888634
 20
-371.75273628
 10
398.1568853712
 20
-370.6197985869
 10
394.3231922256
 20
-369.1706019173
 10
390.653692665
 20
-367.408815653
 10
387.1576537279
 20
-365.3388848085
 10
383.8439104473
 20
-362.9660391557
 10
380.7208289726
 20
-360.296278011
 10
377.7963013013
 20
-357.3363428579
 10
375.0777136685
 20
-354.093705177
 10
372.5719307422
 20
-350.5765694861
 10
370.2852903548
 20
-346.7938033771
 10
368.223561356
 20
-342.7549740145
 10
366.3919541501
 20
-338.4702781738
 10
364.7951048905
 20
-333.9505391977
 10
363.4370280643
 20
-329.2071826576
 10
362.3211691766
 20
-324.2521800834
 10
361.4503415294
 20
-319.0980550421
 10
360.8267367588
 20
-313.7578299058
 10
360.4519564451
 20
-308.2449798471
 10
360.3269172823
 20
-302.5734484194
  0
LWPOLYLINE
  5
E3
330
1F
100
AcDbEntity
  8
0
  6
Continuous
 62
     7
370
    25
100
AcDbPolyline
 90
      118
 70
   128
 43
0.0
 10
372.0648883496
 20
-295.7972619574
 10
372.1906808873
 20
-290.3161253043
 10
372.567694984
 20
-284.7055555843
 10
373.1948453582
 20
-278.9817281214
 10
374.0703196954
 20
-273.1611497334
 10
375.1915997216
 20
-267.2605982767
 10
376.5554453976
 20
-261.2970910859
 10
378.1579265299
 20
-255.2878203373
 10
379.9944280386
 20
-249.2501119843
 10
382.0596499574
 20
-243.2013740461
 10
384.347639044
 20
-237.159047941
 10
386.8517993166
 20
-231.1405506921
 10
389.5649078591
 20
-225.1632445104
 10
392.479146431
 20
-219.2443516258
 10
395.5861067361
 20
-213.4009482041
 10
398.8768325691
 20
-207.6498791788
 10
402.341840889
 20
-202.0077217512
 10
405.9711376244
 20
-196.4907458475
 10
409.7542545518
 20
-191.1148624109
 10
413.6802914425
 20
-185.8955686523
 10
417.737921331
 20
-180.8479145906
 10
421.9154511009
 20
-175.9864498254
 10
426.2008320221
 20
-171.3251992037
 10
430.5817097994
 20
-166.8775913409
 10
435.0454535492
 20
-162.6564601446
 10
439.5791900435
 20
-158.6739702921
 10
444.1698524422
 20
-154.9416012655
 10
448.8042007079
 20
-151.4701233993
 10
453.4688742896
 20
-148.2695431312
 10
458.1504241445
 20
-145.3490845174
 10
462.8353511803
 20
-142.717173123
 10
467.5101482375
 20
-140.3813874519
 10
472.1613354863
 20
-138.3484750147
 10
476.7755039726
 20
-136.6242906877
 10
481.3393491218
 20
-135.2138077907
 10
485.8397132147
 20
-134.1210874816
 10
490.263617656
 20
-133.3492905475
 10
494.5983103898
 20
-132.9006317805
 10
498.8312896073
 20
-132.776414962
 10
502.9503564301
 20
-132.9769841975
 10
506.9436280808
 20
-133.5017771502
 10
510.7995958359
 20
-134.3492733355
 10
514.5071381956
 20
-135.5170230193
 10
518.0555709338
 20
-137.0016730786
 10
521.4346523663
 20
-138.7989335418
 10
524.6346518395
 20
-140.9036171387
 10
527.6463391935
 20
-143.3096697188
 10
530.4610216409
 20
-146.0101489611
 10
533.07059645
 20
-148.9972608816
 10
535.46753514
 20
-152.2623993757
 10
537.6449256278
 20
-155.7961523062
 10
539.5964933012
 20
-159.5883227978
 10
541.3166062877
 20
-163.6279870332
 10
542.8003070642
 20
-167.9034912137
 10
544.0433124572
 20
-172.4025123968
 10
545.0420505213
 20
-177.1120737086
 10
545.7936341974
 20
-182.0185975737
 10
546.2958981911
 20
-187.1079376582
 10
546.5473884362
 20
-192.3654244965
 10
546.5473884362
 20
-197.7758928704
 10
546.2958981911
 20
-203.3237441651
 10
545.7936341974
 20
-208.9929859132
 10
545.0420505213
 20
-214.7672698199
 10
544.0433124572
 20
-220.6299495556
 10
542.8003070642
 20
-226.5641142176
 10
541.3166062877
 20
-232.5526628515
 10
539.5964933012
 20
-238.5783272679
 10
537.6449256278
 20
-244.6237298339
 10
535.46753514
 20
-250.6714443104
 10
533.07059645
 20
-256.7040293092
 10
530.4610216409
 20
-262.7040921718
 10
527.6463391935
 20
-268.6543345947
 10
524.6346518395
 20
-274.5376073791
 10
521.4346523663
 20
-280.3369317252
 10
518.0555709338
 20
-286.0355965666
 10
514.5071381956
 20
-291.6171798597
 10
510.7995958359
 20
-297.0655668361
 10
506.9436280808
 20
-302.3650686277
 10
502.9503564301
 20
-307.5003948905
 10
498.8312896073
 20
-312.45673745
 10
494.5983103898
 20
-317.219814407
 10
490.263617656
 20
-321.775885342
 10
485.8397132147
 20
-326.1118197546
 10
481.3393491218
 20
-330.215109227
 10
476.7755039726
 20
-334.0739297789
 10
472.1613354863
 20
-337.6771509893
 10
467.5101482375
 20
-341.0143850427
 10
462.8353511803
 20
-344.0760051668
 10
458.1504241445
 20
-346.853195392
 10
453.4688742896
 20
-349.3379391876
 10
448.8042007079
 20
-351.5230763989
 10
444.1698524422
 20
-353.4023031472
 10
439.5791900435
 20
-354.9702001069
 10
435.0454535492
 20
-356.2222509904
 10
430.5817097994
 20
-357.1548486274
 10
426.2008320221
 20
-357.7652945826
 10
421.9154511009
 20
-358.0518394556
 10
417.737921331
 20
-358.0136478965
 10
413.6802914425
 20
-357.6508335844
 10
409.7542545518
 20
-356.9644455343
 10
405.9711376244
 20
-355.9564559288
 10
402.341840889
 20
-354.6297768428
 10
398.8768325691
 20
-352.9882328659
 10
395.5861067361
 20
-351.036555015
 10
392.479146431
 20
-348.7803716055
 10
389.5649078591
 20
-346.2261869563
 10
386.8517993166
 20
-343.3813692208
 10
384.347639044
 20
-340.2541138809
 10
382.0596499574
 20
-336.8534437459
 10
379.9944280386
 20
-333.1891602807
 10
378.1579265299
 20
-329.271831436
 10
376.5554453976
 20
-325.1127460204
 10
375.1915997216
 20
-320.7239015296
 10
374.0703196954
 20
-316.1179524347
 10
373.1948453582
 20
-311.308175201
 10
372.567694984
 20
-306.3084401474
 10
372.1906808873
 20
-301.1331616379
 10
372.0648883496
 20
-295.7972619574
  0
ARC
  5
E4
330
1F
100
AcDbEntity
  8
0
  6
Continuous
 62
     7
370
    25
100
AcDbCircle
 10
603.5993754709
 20
-221.6953936441
 30
0.0
 40
47.31622149183788
100
AcDbArc
 50
47.6237753112
 51
59.9661083167
  0
ARC
  5
E5
330
1F
100
AcDbEntity
  8
0
  6
Continuous
 62
     7
370
    25
100
AcDbCircle
 10
510.9449889501
 20
-382.1815364881
 30
0.0
 40
47.37152967969496
100
AcDbArc
 50
240.0473035752
 51
252.1825592063
  0
ARC
  5
E6
330
1F
100
AcDbEntity
  8
0
  6
Continuous
 62
     7
370
    25
100
AcDbCircle
 10
587.1655858983
 20
-234.7014600989
 30
0.0
 40
68.39587390683128
100
AcDbArc
 50
13.2011448203
 51
37.6605490387
  0
ARC
  5
E7
330
1F
100
AcDbEntity
  8
0
  6
Continuous
 62
     7
370
    25
100
AcDbCircle
 10
514.2906020123
 20
-362.6903219337
 30
0.0
 40
67.21675457047158
100
AcDbArc
 50
260.1089455874
 51
289.2118319817
  0
ARC
  5
E8
330
1F
100
AcDbEntity
  8
0
  6
Continuous
 62
     7
370
    25
100
AcDbCircle
 10
646.4588397232
 20
-301.8832302285
 30
0.0
 40
47.55895474635574
100
AcDbArc
 50
14.8606237501
 51
27.6117623963
  0
ARC
  5
E9
330
1F
100
AcDbEntity
  8
0
  6
Continuous
 62
     7
370
    25
100
AcDbCircle
 10
601.7945436455
 20
-379.2178731771
 30
0.0
 40
47.58887575755541
100
AcDbArc
 50
272.3954024781
 51
285.2357725409
  0
LWPOLYLINE
  5
EA
330
1F
100
AcDbEntity
  8
0
  6
Continuous
 62
     7
370
    25
100
AcDbPolyline
 90
       52
 70
   128
 43
0.0
 10
750.391374634
 20
-309.5354954448
 10
751.7863088792
 20
-310.3923212431
 10
754.430191223
 20
-312.3290546189
 10
756.8805563118
 20
-314.5623746987
 10
759.127731444
 20
-317.0834652892
 10
761.1628447079
 20
-319.882381745
 10
762.9778723973
 20
-322.9480722665
 10
764.5656442795
 20
-326.2684417792
 10
765.9198962791
 20
-329.8303838777
 10
767.0352862832
 20
-333.6198416647
 10
767.907409946
 20
-337.6218609847
 10
768.5328217627
 20
-341.8206497419
 10
768.909061411
 20
-346.1996322761
 10
769.0346432145
 20
-350.7415273089
 10
768.909061411
 20
-355.4284160057
 10
768.5328217627
 20
-360.2417955914
 10
767.907409946
 20
-365.1626694622
 10
767.0352862832
 20
-370.1716213301
 10
765.9198962791
 20
-375.2488810041
 10
764.5656442795
 20
-380.3744091796
 10
762.9778723973
 20
-385.5279810866
 10
761.1628447079
 20
-390.6892579724
 10
759.127731444
 20
-395.8378661881
 10
756.8805563118
 20
-400.95348996
 10
754.430191223
 20
-406.0159413517
 10
751.7863088792
 20
-411.0052363061
 10
748.9593406254
 20
-415.9016889385
 10
745.9604448399
 20
-420.6859723713
 10
742.8014542503
 20
-425.3392099839
 10
739.4948390555
 20
-429.8430332048
 10
736.0536463392
 20
-434.1796651568
 10
732.4914579233
 20
-438.3319997411
 10
728.822332416
 20
-442.2836411761
 10
725.0607512111
 20
-446.018996008
 10
721.2215579018
 20
-449.5233263379
 10
717.31990428
 20
-452.7827992466
 10
713.3711884336
 20
-455.7845468655
 10
709.3909944889
 20
-458.5167315805
 10
705.3950303789
 20
-460.9685697906
 10
701.3990662688
 20
-463.1303735378
 10
697.4188723242
 20
-464.9936229348
 10
693.4701564777
 20
-466.5509655892
 10
689.5685028559
 20
-467.7962460658
 10
685.7293095466
 20
-468.7245539795
 10
681.9677283417
 20
-469.3322283628
 10
678.2986028344
 20
-469.6168690668
 10
674.7364144186
 20
-469.5773496837
 10
671.2952217022
 20
-469.2138342718
 10
667.9886065074
 20
-468.5277476921
 10
664.8296159178
 20
-467.5218029794
 10
661.8307201323
 20
-466.1999709202
 10
660.3986861237
 20
-465.4242921568
  0
LWPOLYLINE
  5
EB
330
1F
100
AcDbEntity
  8
0
  6
Continuous
 62
     1
370
    25
100
AcDbPolyline
 90
       59
 70
   128
 43
0.0
 10
635.4903148539
 20
-186.741240793
 10
637.3760070031
 20
-188.5519338685
 10
640.1984550073
 20
-191.6541998452
 10
642.8114647846
 20
-195.0351527775
 10
645.2084350848
 20
-198.6862596523
 10
647.3833072983
 20
-202.5982909233
 10
649.3305865299
 20
-206.7613691831
 10
651.0453626718
 20
-211.1649752482
 10
652.5232945983
 20
-215.79798466
 10
653.7606523136
 20
-220.6486981074
 10
654.7543064141
 20
-225.7048581559
 10
655.5017596991
 20
-230.9536918365
 10
656.0011050235
 20
-236.3819456229
 10
656.2510990554
 20
-241.9759000776
 10
656.2510990554
 20
-247.7214295421
 10
656.0011050235
 20
-253.6040209622
 10
655.5017596991
 20
-259.6088065885
 10
654.7543064141
 20
-265.7206314625
 10
653.7606523136
 20
-271.9240401156
 10
652.5232945983
 20
-278.203376372
 10
651.0453626718
 20
-284.5427696648
 10
649.3305865299
 20
-290.9262141212
 10
647.3833072983
 20
-297.3375731258
 10
645.2084350848
 20
-303.7606584054
 10
642.8114647846
 20
-310.1792482811
 10
640.1984550073
 20
-316.5771180854
 10
637.3760070031
 20
-322.9381131638
 10
634.3512488577
 20
-329.2461640835
 10
631.1318196873
 20
-335.4853383427
 10
627.7258485655
 20
-341.6398768712
 10
624.1419492543
 20
-347.6942214066
 10
620.3891675211
 20
-353.6330874936
 10
616.4769864068
 20
-359.44147361
 10
612.4152840791
 20
-365.1047037489
 10
608.2143285639
 20
-370.608473046
 10
603.884725062
 20
-375.9388781928
 10
599.4374106806
 20
-381.0824569806
 10
594.8836228231
 20
-386.026212632
 10
590.234864945
 20
-390.7576579049
 10
585.502880212
 20
-395.2648424664
 10
580.6996172556
 20
-399.5363787454
 10
575.8372156853
 20
-403.5614746311
 10
570.9279547221
 20
-407.329975294
 10
565.9842367345
 20
-410.8323361872
 10
561.0185493729
 20
-414.0597300787
 10
556.0434372515
 20
-417.0040025613
 10
551.0714673753
 20
-419.6577163466
 10
546.1152001635
 20
-422.0141558244
 10
541.1871535596
 20
-424.0673721178
 10
536.2997786645
 20
-425.8121971485
 10
531.4654205536
 20
-427.2441932529
 10
526.6962912762
 20
-428.3597661085
 10
522.0044356113
 20
-429.1560993304
 10
517.4017099943
 20
-429.6311544697
 10
512.8997364187
 20
-429.7837706296
 10
508.5098945336
 20
-429.6135230186
 10
504.2432636917
 20
-429.120871996
 10
500.1106334863
 20
-428.3070413985
 10
496.4500058374
 20
-427.2809521024
  0
LWPOLYLINE
  5
EC
330
1F
100
AcDbEntity
  8
0
  6
Continuous
 62
     1
370
    25
100
AcDbPolyline
 90
       26
 70
   128
 43
0.0
 10
470.2296795646
 20
-339.098674481
 10
470.676941921
 20
-335.2569446154
 10
471.5524162582
 20
-329.4363662274
 10
472.6736962844
 20
-323.5358147708
 10
474.0375419604
 20
-317.57230758
 10
475.6400230927
 20
-311.5630368314
 10
477.4765246014
 20
-305.5253284783
 10
479.5417465202
 20
-299.4765905402
 10
481.8297356068
 20
-293.434264435
 10
484.3338958794
 20
-287.4157671861
 10
487.0470044219
 20
-281.4384610044
 10
489.9612429938
 20
-275.5195681199
 10
493.0682032989
 20
-269.6761646982
 10
496.3589291319
 20
-263.9250956729
 10
499.8239374518
 20
-258.2829382453
 10
503.4532341872
 20
-252.7659623415
 10
507.2363511146
 20
-247.3900789049
 10
511.1623880054
 20
-242.1707851464
 10
515.2200178938
 20
-237.1231310846
 10
519.3975476638
 20
-232.2616663194
 10
523.6829285849
 20
-227.6004156977
 10
528.0638063622
 20
-223.152807835
 10
532.527550112
 20
-218.9316766386
 10
537.0612866063
 20
-214.9491867861
 10
541.651949005
 20
-211.2168177596
 10
545.8961498209
 20
-208.02630611
  0
LWPOLYLINE
  5
ED
330
1F
100
AcDbEntity
  8
0
  6
Continuous
 62
     1
370
    25
100
AcDbPolyline
 90
       43
 70
   128
 43
0.0
 10
653.7540536977
 20
-219.0818722807
 10
654.2373305361
 20
-221.1171718404
 10
655.2295832539
 20
-226.1662016574
 10
655.9759828676
 20
-231.4076298515
 10
656.4746222323
 20
-236.8282272313
 10
656.7242580161
 20
-242.4142933708
 10
656.7242580161
 20
-248.1517178217
 10
656.4746222323
 20
-254.0260073021
 10
655.9759828676
 20
-260.022321438
 10
655.2295832539
 20
-266.1255242827
 10
654.2373305361
 20
-272.3201847021
 10
653.0017113783
 20
-278.5906632499
 10
651.5258657207
 20
-284.9211136949
 10
649.8135130227
 20
-291.2955484143
 10
647.868983873
 20
-297.6978642523
 10
645.6971778426
 20
-304.1118911856
 10
643.3035898271
 20
-310.5214227448
 10
640.694267899
 20
-316.9102707633
 10
637.8757975036
 20
-323.2622957947
 10
634.8553067266
 20
-329.5614466571
 10
631.6404188792
 20
-335.791818224
 10
628.2392524981
 20
-341.9376696754
 10
624.6604108087
 20
-347.9834731661
 10
620.9129237733
 20
-353.9139655326
 10
617.0062586279
 20
-359.7141604603
 10
612.9502882716
 20
-365.3693971512
 10
608.7552543886
 20
-370.8654041987
 10
604.4317621797
 20
-376.1882904618
 10
599.9907224103
 20
-381.3246150224
 10
595.4433593131
 20
-386.2614008738
 10
590.8011579041
 20
-390.986165335
 10
586.0758455441
 20
-395.4869915319
 10
581.2793603278
 20
-399.7525101435
 10
576.4238181571
 20
-403.7719184105
 10
571.5214824479
 20
-407.5351071294
 10
566.5847384466
 20
-411.0325294705
 10
561.6260563522
 20
-414.2553682763
 10
556.657962422
 20
-417.1954919042
 10
551.6930062917
 20
-419.8454487578
 10
546.743730847
 20
-422.1985698514
 10
541.8226358389
 20
-424.2488924753
 10
536.9421559048
 20
-425.9912458881
 10
536.4090588573
 20
-426.1636703706
  0
LWPOLYLINE
  5
EE
330
1F
100
AcDbEntity
  8
0
  6
Continuous
 62
     1
370
    25
100
AcDbPolyline
 90
       36
 70
   128
 43
0.0
 10
692.4270693922
 20
-289.6858519177
 10
692.6338576361
 20
-290.4725397637
 10
693.5078989805
 20
-294.4833380472
 10
694.1346858382
 20
-298.6913391809
 10
694.51174735
 20
-303.0799329025
 10
694.637603108
 20
-307.6317957283
 10
694.51174735
 20
-312.3289685193
 10
694.1346858382
 20
-317.1529081959
 10
693.5078989805
 20
-322.0845820316
 10
692.6338576361
 20
-327.1045269711
 10
691.5160231148
 20
-332.1929271971
 10
690.1587997624
 20
-337.3297023399
 10
688.5675402285
 20
-342.4945865656
 10
686.7485349303
 20
-347.6671848498
 10
684.7089541005
 20
-352.8270931248
 10
682.456847787
 20
-357.9539408663
 10
680.001108975
 20
-363.0275005957
 10
677.3514209028
 20
-368.0277456709
 10
674.5182491598
 20
-372.9349430619
 10
671.5127731975
 20
-377.7297293907
 10
668.3468494514
 20
-382.3931748066
 10
665.0329797302
 20
-386.9068803225
 10
661.5842348255
 20
-391.2530310404
 10
658.0142308034
 20
-395.414470674
 10
654.3370526139
 20
-399.3747882349
 10
650.5672172121
 20
-403.1183393218
 10
646.7195984843
 20
-406.6303563805
 10
642.809383784
 20
-409.8969859626
 10
638.8520028089
 20
-412.9053237003
 10
634.8630749176
 20
-415.643499473
 10
630.8583419582
 20
-418.1007161847
 10
626.8536089988
 20
-420.2672657283
 10
622.8646811076
 20
-422.1346080676
 10
618.9073001325
 20
-423.6953651479
 10
614.9970854321
 20
-424.943373362
 10
614.3005020763
 20
-425.1341241085
  0
LWPOLYLINE
  5
EF
330
1F
100
AcDbEntity
  8
0
  6
Continuous
 62
     1
370
    25
100
AcDbPolyline
 90
       26
 70
   128
 43
0.0
 10
472.364111877
 20
-337.524975098
 10
472.553472399
 20
-336.0070435356
 10
473.4254432795
 20
-330.2097547554
 10
474.5422346663
 20
-324.3328137294
 10
475.9006275938
 20
-318.3931632688
 10
477.4966971367
 20
-312.4079377551
 10
479.3258492887
 20
-306.3943870976
 10
481.3828104252
 20
-300.3698493554
 10
483.661643109
 20
-294.3516959855
 10
486.1557829684
 20
-288.357283177
 10
488.8580386974
 20
-282.403891014
 10
491.760613129
 20
-276.5086869749
 10
494.8551453821
 20
-270.6886590163
 10
498.1327055933
 20
-264.9606003628
 10
501.5838476
 20
-259.3410182563
 10
505.1986247461
 20
-253.8461187488
 10
508.9666056866
 20
-248.4917428244
 10
512.8769323395
 20
-243.2933329445
 10
516.9183277887
 20
-238.2658737329
 10
521.0791410649
 20
-233.4238661236
 10
525.3473761212
 20
-228.7812619641
 10
529.7107260779
 20
-224.3514503301
 10
534.1566101007
 20
-220.1472058178
 10
538.672207645
 20
-216.1806505236
 10
543.2445006032
 20
-212.463217546
 10
545.6007491452
 20
-210.66165414
  0
LWPOLYLINE
  5
F0
330
1F
100
AcDbEntity
  8
0
  6
Continuous
 62
     1
370
    25
100
AcDbPolyline
 90
       44
 70
   128
 43
0.0
 10
687.0625579277
 20
-276.9408549722
 10
687.2389266836
 20
-277.2070122404
 10
689.053954373
 20
-280.2727027619
 10
690.6417262551
 20
-283.5930722745
 10
691.9959782548
 20
-287.1550143731
 10
693.1113682588
 20
-290.9444721601
 10
693.9834919217
 20
-294.94649148
 10
694.6089037384
 20
-299.1452802373
 10
694.9851433867
 20
-303.5242627714
 10
695.1107251901
 20
-308.0661578042
 10
694.9851433867
 20
-312.7530465011
 10
694.6089037384
 20
-317.5664260868
 10
693.9834919217
 20
-322.4872999575
 10
693.1113682588
 20
-327.4962518254
 10
691.9959782548
 20
-332.5735114995
 10
690.6417262551
 20
-337.6990396749
 10
689.053954373
 20
-342.8526115819
 10
687.2389266836
 20
-348.0138884678
 10
685.2038134197
 20
-353.1624966835
 10
682.9566382875
 20
-358.2781204554
 10
680.5062731987
 20
-363.3405718471
 10
677.8623908549
 20
-368.3298668014
 10
675.0354226011
 20
-373.2263194339
 10
672.0365268156
 20
-378.0106028667
 10
668.877536226
 20
-382.6638404793
 10
665.5709210312
 20
-387.1676637002
 10
662.1297283148
 20
-391.5042956522
 10
658.567539899
 20
-395.6566302365
 10
654.8984143917
 20
-399.6082716714
 10
651.1368331868
 20
-403.3436265033
 10
647.2976398775
 20
-406.8479568332
 10
643.3959862557
 20
-410.107429742
 10
639.4472704092
 20
-413.1091773609
 10
635.4670764646
 20
-415.8413620759
 10
631.4711123545
 20
-418.293200286
 10
627.4751482445
 20
-420.4550040331
 10
623.4949542999
 20
-422.3182534301
 10
619.5462384534
 20
-423.8755960846
 10
615.6445848316
 20
-425.1208765612
 10
611.8053915223
 20
-426.0491844749
 10
608.0438103174
 20
-426.6568588582
 10
604.3746848101
 20
-426.9414995621
 10
600.8124963943
 20
-426.901980179
 10
600.5028751084
 20
-426.8828665496
  0
ENDSEC
  0
SECTION
  2
OBJECTS
  0
DICTIONARY
  5
C
330
0
100
AcDbDictionary
281
     1
  3
ACAD_GROUP
350
D
  3
ACAD_LAYOUT
350
1A
  3
ACAD_MLINESTYLE
350
17
  3
ACAD_PLOTSETTINGS
350
19
  3
ACAD_PLOTSTYLENAME
350
E
  3
ACAD_SCALELIST
350
47
  0
DICTIONARY
  5
D
102
{ACAD_REACTORS
330
C
102
}
330
C
100
AcDbDictionary
281
     1
  0
DICTIONARY
  5
1A
102
{ACAD_REACTORS
330
C
102
}
330
C
100
AcDbDictionary
281
     1
  3
Layout1
350
1E
  3
Layout2
350
26
  3
Model
350
22
  0
DICTIONARY
  5
17
102
{ACAD_REACTORS
330
C
102
}
330
C
100
AcDbDictionary
281
     1
  3
Standard
350
18
  0
DICTIONARY
  5
19
102
{ACAD_REACTORS
330
C
102
}
330
C
100
AcDbDictionary
281
     1
  0
ACDBDICTIONARYWDFLT
  5
E
102
{ACAD_REACTORS
330
C
102
}
330
C
100
AcDbDictionary
281
     1
  3
Normal
350
F
100
AcDbDictionaryWithDefault
340
F
  0
DICTIONARY
  5
47
102
{ACAD_REACTORS
330
C
102
}
330
C
100
AcDbDictionary
281
     1
  3
A0
350
48
  3
A1
350
49
  3
A2
350
4A
  3
A3
350
4B
  3
A4
350
4C
  3
A5
350
4D
  3
A6
350
4E
  3
A7
350
4F
  3
A8
350
50
  3
A9
350
51
  3
B0
350
52
  3
B1
350
53
  3
B2
350
54
  3
B3
350
55
  3
B4
350
56
  3
B5
350
57
  3
B6
350
58
  3
B7
350
59
  3
B8
350
5A
  3
B9
350
5B
  3
C0
350
5C
  3
C1
350
5D
  3
C2
350
5E
  3
C3
350
5F
  3
C4
350
60
  3
C5
350
61
  3
C6
350
62
  3
C7
350
63
  3
C8
350
64
  3
C9
350
65
  3
D0
350
66
  3
D1
350
67
  3
D2
350
68
  0
LAYOUT
  5
1E
102
{ACAD_REACTORS
330
1A
102
}
330
1A
100
AcDbPlotSettings
  1

  2
none_device
  4

  6

 40
0.0
 41
0.0
 42
0.0
 43
0.0
 44
0.0
 45
0.0
 46
0.0
 47
0.0
 48
0.0
 49
0.0
140
0.0
141
0.0
142
1.0
143
1.0
 70
   688
 72
     1
 73
     0
 74
     5
  7

 75
    16
147
1.0
148
0.0
149
0.0
100
AcDbLayout
  1
Layout1
 70
     1
 71
     1
 10
0.0
 20
0.0
 11
420.0
 21
297.0
 12
0.0
 22
0.0
 32
0.0
 14
1.0000000000E+20
 24
1.0000000000E+20
 34
1.0000000000E+20
 15
-1.0000000000E+20
 25
-1.0000000000E+20
 35
-1.0000000000E+20
146
0.0
 13
0.0
 23
0.0
 33
0.0
 16
1.0
 26
0.0
 36
0.0
 17
0.0
 27
1.0
 37
0.0
 76
     0
330
1B
  0
LAYOUT
  5
26
102
{ACAD_REACTORS
330
1A
102
}
330
1A
100
AcDbPlotSettings
  1

  2
none_device
  4

  6

 40
0.0
 41
0.0
 42
0.0
 43
0.0
 44
0.0
 45
0.0
 46
0.0
 47
0.0
 48
0.0
 49
0.0
140
0.0
141
0.0
142
1.0
143
1.0
 70
   688
 72
     1
 73
     0
 74
     5
  7

 75
    16
147
1.0
148
0.0
149
0.0
100
AcDbLayout
  1
Layout2
 70
     1
 71
     2
 10
0.0
 20
0.0
 11
0.0
 21
0.0
 12
0.0
 22
0.0
 32
0.0
 14
0.0
 24
0.0
 34
0.0
 15
0.0
 25
0.0
 35
0.0
146
0.0
 13
0.0
 23
0.0
 33
0.0
 16
1.0
 26
0.0
 36
0.0
 17
0.0
 27
1.0
 37
0.0
 76
     0
330
23
  0
LAYOUT
  5
22
102
{ACAD_REACTORS
330
1A
102
}
330
1A
100
AcDbPlotSettings
  1

  2
none_device
  4
Letter_(8.50_x_11.00_Inches)
  6

 40
6.35
 41
6.35
 42
6.35000508
 43
6.35000508
 44
215.9
 45
279.4
 46
0.0
 47
0.0
 48
0.0
 49
0.0
140
0.0
141
0.0
142
1.0
143
1.0
 70
  1712
 72
     1
 73
     0
 74
     0
  7

 75
     0
147
1.0
148
0.0
149
0.0
100
AcDbLayout
  1
Model
 70
     1
 71
     0
 10
0.0
 20
0.0
 11
279.4
 21
215.9
 12
0.0
 22
0.0
 32
0.0
 14
0.0
 24
0.0
 34
0.0
 15
279.4
 25
215.9
 35
0.0
146
0.0
 13
0.0
 23
0.0
 33
0.0
 16
1.0
 26
0.0
 36
0.0
 17
0.0
 27
1.0
 37
0.0
 76
     0
330
1F
331
29
  0
MLINESTYLE
  5
18
102
{ACAD_REACTORS
330
17
102
}
330
17
100
AcDbMlineStyle
  2
Standard
 70
     0
  3

 62
   256
 51
90.0
 52
90.0
 71
     2
 49
0.5
 62
   256
  6
BYLAYER
 49
-0.5
 62
   256
  6
BYLAYER
  0
ACDBPLACEHOLDER
  5
F
102
{ACAD_REACTORS
330
E
102
}
330
E
  0
SCALE
  5
48
102
{ACAD_REACTORS
330
47
102
}
330
47
100
AcDbScale
 70
     0
300
1:1
140
1.0
141
1.0
290
     1
  0
SCALE
  5
49
102
{ACAD_REACTORS
330
47
102
}
330
47
100
AcDbScale
 70
     0
300
1:2
140
1.0
141
2.0
290
     0
  0
SCALE
  5
4A
102
{ACAD_REACTORS
330
47
102
}
330
47
100
AcDbScale
 70
     0
300
1:4
140
1.0
141
4.0
290
     0
  0
SCALE
  5
4B
102
{ACAD_REACTORS
330
47
102
}
330
47
100
AcDbScale
 70
     0
300
1:5
140
1.0
141
5.0
290
     0
  0
SCALE
  5
4C
102
{ACAD_REACTORS
330
47
102
}
330
47
100
AcDbScale
 70
     0
300
1:8
140
1.0
141
8.0
290
     0
  0
SCALE
  5
4D
102
{ACAD_REACTORS
330
47
102
}
330
47
100
AcDbScale
 70
     0
300
1:10
140
1.0
141
10.0
290
     0
  0
SCALE
  5
4E
102
{ACAD_REACTORS
330
47
102
}
330
47
100
AcDbScale
 70
     0
300
1:16
140
1.0
141
16.0
290
     0
  0
SCALE
  5
4F
102
{ACAD_REACTORS
330
47
102
}
330
47
100
AcDbScale
 70
     0
300
1:20
140
1.0
141
20.0
290
     0
  0
SCALE
  5
50
102
{ACAD_REACTORS
330
47
102
}
330
47
100
AcDbScale
 70
     0
300
1:30
140
1.0
141
30.0
290
     0
  0
SCALE
  5
51
102
{ACAD_REACTORS
330
47
102
}
330
47
100
AcDbScale
 70
     0
300
1:40
140
1.0
141
40.0
290
     0
  0
SCALE
  5
52
102
{ACAD_REACTORS
330
47
102
}
330
47
100
AcDbScale
 70
     0
300
1:50
140
1.0
141
50.0
290
     0
  0
SCALE
  5
53
102
{ACAD_REACTORS
330
47
102
}
330
47
100
AcDbScale
 70
     0
300
1:100
140
1.0
141
100.0
290
     0
  0
SCALE
  5
54
102
{ACAD_REACTORS
330
47
102
}
330
47
100
AcDbScale
 70
     0
300
2:1
140
2.0
141
1.0
290
     0
  0
SCALE
  5
55
102
{ACAD_REACTORS
330
47
102
}
330
47
100
AcDbScale
 70
     0
300
4:1
140
4.0
141
1.0
290
     0
  0
SCALE
  5
56
102
{ACAD_REACTORS
330
47
102
}
330
47
100
AcDbScale
 70
     0
300
8:1
140
8.0
141
1.0
290
     0
  0
SCALE
  5
57
102
{ACAD_REACTORS
330
47
102
}
330
47
100
AcDbScale
 70
     0
300
10:1
140
10.0
141
1.0
290
     0
  0
SCALE
  5
58
102
{ACAD_REACTORS
330
47
102
}
330
47
100
AcDbScale
 70
     0
300
100:1
140
100.0
141
1.0
290
     0
  0
SCALE
  5
59
102
{ACAD_REACTORS
330
47
102
}
330
47
100
AcDbScale
 70
     0
300
1/128" = 1'-0"
140
0.0078125
141
12.0
290
     0
  0
SCALE
  5
5A
102
{ACAD_REACTORS
330
47
102
}
330
47
100
AcDbScale
 70
     0
300
1/64" = 1'-0"
140
0.015625
141
12.0
290
     0
  0
SCALE
  5
5B
102
{ACAD_REACTORS
330
47
102
}
330
47
100
AcDbScale
 70
     0
300
1/32" = 1'-0"
140
0.03125
141
12.0
290
     0
  0
SCALE
  5
5C
102
{ACAD_REACTORS
330
47
102
}
330
47
100
AcDbScale
 70
     0
300
1/16" = 1'-0"
140
0.0625
141
12.0
290
     0
  0
SCALE
  5
5D
102
{ACAD_REACTORS
330
47
102
}
330
47
100
AcDbScale
 70
     0
300
3/32" = 1'-0"
140
0.09375
141
12.0
290
     0
  0
SCALE
  5
5E
102
{ACAD_REACTORS
330
47
102
}
330
47
100
AcDbScale
 70
     0
300
1/8" = 1'-0"
140
0.125
141
12.0
290
     0
  0
SCALE
  5
5F
102
{ACAD_REACTORS
330
47
102
}
330
47
100
AcDbScale
 70
     0
300
3/16" = 1'-0"
140
0.1875
141
12.0
290
     0
  0
SCALE
  5
60
102
{ACAD_REACTORS
330
47
102
}
330
47
100
AcDbScale
 70
     0
300
1/4" = 1'-0"
140
0.25
141
12.0
290
     0
  0
SCALE
  5
61
102
{ACAD_REACTORS
330
47
102
}
330
47
100
AcDbScale
 70
     0
300
3/8" = 1'-0"
140
0.375
141
12.0
290
     0
  0
SCALE
  5
62
102
{ACAD_REACTORS
330
47
102
}
330
47
100
AcDbScale
 70
     0
300
1/2" = 1'-0"
140
0.5
141
12.0
290
     0
  0
SCALE
  5
63
102
{ACAD_REACTORS
330
47
102
}
330
47
100
AcDbScale
 70
     0
300
3/4" = 1'-0"
140
0.75
141
12.0
290
     0
  0
SCALE
  5
64
102
{ACAD_REACTORS
330
47
102
}
330
47
100
AcDbScale
 70
     0
300
1" = 1'-0"
140
1.0
141
12.0
290
     0
  0
SCALE
  5
65
102
{ACAD_REACTORS
330
47
102
}
330
47
100
AcDbScale
 70
     0
300
1-1/2" = 1'-0"
140
1.5
141
12.0
290
     0
  0
SCALE
  5
66
102
{ACAD_REACTORS
330
47
102
}
330
47
100
AcDbScale
 70
     0
300
3" = 1'-0"
140
3.0
141
12.0
290
     0
  0
SCALE
  5
67
102
{ACAD_REACTORS
330
47
102
}
330
47
100
AcDbScale
 70
     0
300
6" = 1'-0"
140
6.0
141
12.0
290
     0
  0
SCALE
  5
68
102
{ACAD_REACTORS
330
47
102
}
330
47
100
AcDbScale
 70
     0
300
1'-0" = 1'-0"
140
12.0
141
12.0
290
     0
  0
ENDSEC
  0
EOF
